Overblog Suivre ce blog
Editer l'article Administration Créer mon blog
A Blog of Five Strings

[Bass Tab] 'Petit Papa Noël' - Tino Rossi

25 Janvier 2011 , Rédigé par silver-brane.over-blog.com Publié dans #Tablature

Oui, je sais... Il y a plus glorieux pour une première tablature. Mais le moi de Janvier s'achevant, l'esprit de Noël ça ne revient pas avant dans 11 mois...

Et puis cette tablature est entièrement de moi, 100% faite à l'oreille et tout! Il n'y a bien sûr pas de basse dans la version originale: la tablature ci-dessous n'est qu'une adaptation du chant. Mais je trouvais ça fun!

 

 


 

.Intro
.Riff#A x2
.Riff#B x1
.Riff#A x2

 

Riff#A

G|--------------------------------------------------------------------|

D|-------------------4-4-4-5-4----------------------------------------|

A|---5-5-5-7-5---5-7-------------7-5--5-5-5-4-----------5---5-5-7-7-5-|

E|-5------------------------------------------7-5---5-5---------------|

 

Riff#B

G|---------------------------------------------------------------------------------------|

D|----------------------------------------------3-3-3-3-3--3-5-6--3-3-----6-6-6-8-8-8-10-|

A|---------------------------5-5-5-5-5--5-5-7-------------------------6------------------|

E|-7-7-7-7-7--7-9-10--7-7-5--------------------------------------------------------------|

 


 

C'est tout pour ce soir.

Partager cet article

Repost 0

Commenter cet article