Overblog Suivre ce blog
Editer l'article Administration Créer mon blog
A Blog of Five Strings

[Bass Tab] 'Viva la Vida' - Coldplay

10 Mars 2011 , Rédigé par Silver Brane Publié dans #Tablature

Enorme succès du groupe de rock anglais Coldplay, Viva la Vida a été primé au Grammy Awards en 2009.

Cette chanson conte l'histoire d'un roi et de sa guerre, bien que l'air ne laisse en rien transparaître la nature de la violence connotée.

Voici comment la jouer à la basse en tuning standard 4 cordes (GDAE). Enjoy!

 


Intro: Rest

Instr1: A x2

Verse1: B1, B2, B2, B1

Choru1: C1, C1, C2, C1

Instr2: A x2

Verse2: B1, B2, B2, B1

Choru2: C1, C1, C2, C1

Interl: Rest

Instr3: A x2

Choru3: C1, C1, C2

 

Riff A

G|---------------------------------|

D|---------------------------------|

A|-4-4-4-46-6-66-6-----------------|

E|-----------------4-4-4-41-1-11-1-|

 

  Riff B1                             Riff B2

G|---------------------------------| |---------------------------------|

D|---------------------------------| |-----------------6-6-6-63-3-33-3-|

A|-4-4-4-46-6-66-6-----------------| |-4-4-4-46-6-66-6-----------------|

E|-----------------4-4-4-41-1-11-1-| |---------------------------------|

 

  Riff C1                             Riff C2

G|---------------------------------| |---------------------------------|

D|---------------------------------| |-----------------6-6-6-63-3-3333-|

A|-4-4-4-4-------------------------| |-4-4-4-46-6-66-6-----------------|

E|--------0-0-00-0-4-4-4-41-1-11-1-| |---------------------------------|

 


 

 

 

Partager cet article

Repost 0

Commenter cet article

B. Waldorf 22/03/2011 21:13


j'aime!!!!!


Silver Brane 23/03/2011 14:03



Ravie que ça te plaise B!


Je pense en faire un cover prochainement!