Overblog Suivre ce blog
Editer l'article Administration Créer mon blog
A Blog of Five Strings

[Bass Tab] 'Rolling in on a burning tire' - The Dead Weather

28 Janvier 2011 , Rédigé par Silver Brane Publié dans #Tablature

En voilà une tab' qui va plaire aux fans de la saga de Stephenie Meyer...

Le titre 'Rolling in on a burning tire est en effet présent sur l'Original Motion Picture Soundtrack de Twilight: Eclipse.

Côté groupe, The Dead Weather est un "supergroupe" de rock alternatif formé par Jack White, leader des White Stripes. Plus d'infos sur Wikipedia.

La chanson n'est pas dispo sur deezer, mais peut être entendue sur Youtube (vidéo à la fin de l'article)

Côté Tablature, on est loin de la rythmique constante du genre pop-rock. On joue principalement sur la 2nde corde (La), avec une note sur la 1ere et deux autres sur la 3e, rien de bien compliqué...

 


Riff°A x 4

Riff°B x 1

Riff°C x 2

Riff°A x 3

Riff°B x 1

Riff°C x 4

Riff°A x 3

 

Riff°A

G|----------------------------------------------------------|

D|-2-0-------------------------2-0------------------------2-|

A|-----2---0-2-3--3-3-2-0-2----------2---0-2-3--3-3-2-0-2---|

E|--------------------------0-------------------------------|

 

Riff°B

G|--------------------|x3|--------------------|x1

D|--------------------|  |------------------2-|

A|-0-2-3--3-3-2-0-2---|  |-0-2-3--3-3-2-0-2---|

E|------------------0-|  |--------------------|

 

Riff°C

G|-------------------------|

D|-------------------------|

A|-1\2-1\2-2\3-2\3-1\2-1\2-|

E|-------------------------|


 

PS: Non, je ne suis pas fan de Twilight ;)

Partager cet article

Repost 0

Commenter cet article