Overblog Suivre ce blog
Editer l'article Administration Créer mon blog
A Blog of Five Strings

[Bass Tab] 'I love rock'n'roll' - Joan Jett

22 Avril 2011 , Rédigé par Silver Brane Publié dans #Tablature

Petit article sur ce tube très connu de Joan Jett & the Black Hearts des années 80.

Cette chanson à la rythmique simple entraînante est à l'origine due au groupe britannique "Arrows" (1975), reprise ensuite par Joan Jett (1982) et dernièrement par Britney Spears (2002) et Alex Gaudino feat Jason Rooney (2009) pour une version beaucoup plus électro.

Simple et sympa à jouer. J'ai inclus la rythmique (4/4) sous la tablature! Tuning standard GDAE.


A1, B, C
A1, B, C
A1, B, rest
A1 x3, A2 x1
Riff A1
 G|-----------------------------------------------------------------|
D|-----------------------------------------------------------------|
A|-----------------------------------------------------------------|
E|-0-0-----0-0\3---5-5-----7-7-----0-0-----0-0\3---5-5-----7-5-0-0-|
   "   '   '   '   "   '   '   '   "   '   '   '   "   '   '   '
Riff A2
 G|-----------------------------------------------------------------|
D|-----------------------------------------------------------------|
A|-----------------------------------------------------------------|
E|-0-0-----0-0\3---5-5-----7-7-----0-0-----0-0\3---5-5-----7-5-0-0-|
   "   '   '   '   "   '   '   '   "   '   '   '   "   '   '   '
Riff B
G|-----------------------------------------------------------------|
D|---------75------------------------------75----------------------|
A|-----------7-5-3---------------------------7-5-3-----------------|
E|-0-0-------------0-0-------------0-0-------------0-0-------------|
   "   '   '   '   "   '   '   '   "   '   '   '   "   '   '   '

G|-----------------------------------------------------------------|
D|---------75------------------------------------------------------|
A|-----------7-5-3-------------------------------------------------|
E|-7-7-------------5-5-----7-7-----0-0-----5~~~~~~~~~~~~~~~~~~~~~~~|
   "   '   '   '   "   '   '   '   "   '   '   '   "   '   '   '

Riff C
G|------------------------------------------------------------------|
D|------------------------------------------------------------------|
A|------------------------------------------------------------------|
E|-------------------------------------------------2-2-2-2-2-2-0-0--|
   "   '   '   '   "   '   '   '   "   '   '   '   "   '   '   '

 

Partager cet article

Repost 0

Commenter cet article