Overblog Suivre ce blog
Editer l'article Administration Créer mon blog
A Blog of Five Strings

[Bass Tab] 'Feeling Good' - Muse

23 Mars 2011 , Rédigé par Silver Brane Publié dans #Tablature

Issue de l'album "Origin of Symmetry", 2001, par l'incontournable groupe britanique, 'Feeling Good' (parfois orthographié 'Feelin' Good') est à l'origine une chanson écrite pour la comédie musicale "The Roar of the Greasepaint – The Smell of the Crowd", 1965. Elle est cependant plus célèbre pour sa version par Nina Simone, mais de nombreux artistes l'ont reprise comme par exemple George Michael, Michael Bublé, les Pussycat Dolls et bien sûr, Muse. (Plus d'info sur Wikipedia).

Trève de bavardage, je m'en vais vous donner la tablature de cette merveilleuse version par Muse, accessible aux débutants mais un plaisir pour les confirmés par sa ligne de basse so cool...


A x3, B, B1

C

A x3, B, B2

A x2, B, B1

 

Riff A

G|--------------------|--------------------|

D|-5--53--31--10--0303|5--53--31--10--0303-|

A|--------------------|--------------------|

E|--------------------|--------------------|

 

Riff B

G|-----------------------|

D|-5--53--32--21--10--0--|

A|---------------------3-|

E|-----------------------|

Riff B1

G|-------------------------|

D|------------------0------|

A|-31--10--03333335--------|

E|--------------------5----|

 

Riff B2

G|---------------------------------------------------------|

D|---------------------------------------------------------|

A|-31--10--03---3310------03------32---5555555555555555558-|

E|---------------------------------------------------------|

 

Riff C

G|-------------------|------------------|----------------|-----------------|

D|-5--53--31--10-\4-7|5--53--31--10-\4-7|8--8------------|-----------------|

A|-------------------|------------------|----A--A6--63--3|1--1-------------|

E|-------------------|------------------|----------------|----3-\A--56--65-|


Clip:


 

Partager cet article

Repost 0

Commenter cet article