Overblog Suivre ce blog
Editer l'article Administration Créer mon blog
A Blog of Five Strings

[Bass Tab] 'Creep' - Radiohead

4 Avril 2011 , Rédigé par Silver Brane Publié dans #Tablature

Parue hier sur le site I love tabs, une base de donnée dédiée aux bassistes à la recherches de tablatures complètes et bien faites, la tab de 'Creep', premier single du groupe de rock alternatif anglais Radiohead (1992). Cette balade parle d'un gars qui aimerait être suffisamment "spécial" pour se faire remarquer par une autre personne, probablement du sexe opposé :)

Autre info, l'humoriste Québécois Stéphane Rousseau interprète cette chanson dans son dernier One Man Show "Les confessions de Rousseau" avec un talent impressionnant.

Je vous la colle telle que trouvée sur ce site.

Cette ligne de basse est relativement simple... y'a plus qu'à!

*********************
* Radiohead : Creep *
*********************

mesure = 2/4, tempo = 96, subdivision (-) = double-croche
suggestion de réglages :
    micro : 50% manche / 50% chevalet
    EQ = 50% bass / 50% mid / 50% treble

Intro :
G|--------|--------|--------|--------|--------|--------|--------|--------|
D|--------|--------|--------|--------|--------|--------|--------|--------|
A|--------|--------|--------|--------|2-------|2-2-----|2-------|2-2----2|
E|3------3|3-3---3-|3------3|3-3---3-|-------2|------2-|-------2|--------|

G|--------|--------|--------|--------|--------|--------|--------|--------|
D|--------|--------|--------|--------|--------|--------|--------|--------|
A|3-------|3-3-----|3-------|3-3---2-|3-------|3-3---2-|3---5---|6-------|
E|-------3|------3-|-------3|--------|-------3|--------|--------|----1---|

Couplet :
G|--------|--------|--------|--------|--------|--------|--------|--------|
D|--------|--------|--------|--------|--------|--------|--------|--------|
A|--------|--------|--------|--------|2-------|2-2-----|2-------|2-2---2-|
E|3------3|3-3---3-|3------3|3-3---3-|-------2|------2-|-------2|--------|

G|--------|--------|--------|--------|--------|--------|--------|--------|
D|--------|--------|--------|--------|--------|--------|--------|--------|
A|3-------|3-3-----|3-------|3-3---2-|3-------|3-3---2-|3---5---|6---8---|
E|-------3|------3-|-------3|--------|-------3|--------|--------|--------|

Couplet 2 :
G|--------|--------|--------|--------|--------|--------|--------|--------|
D|--------|--------|--------|--------|--------|--------|--------|--------|
A|--------|--------|--------|--------|2-------|2-2-----|2-------|2-2-----|
E|3------3|3-3---3-|3------3|3-3---3-|-------2|------2-|-------2|------2-|

G|--------|--------|--------|--------|--------|--------|--------|--------|
D|--------|--------|--------|--------|--------|--------|--------|--------|
A|3-------|3-3---2-|3-------|3-3---3-|3-------|3-3-----|3---5---|6---8---|
E|-------3|--------|-------3|--------|-------3|------3-|--------|--------|

Refrain :
G|--------|--------|--------|--------|--------|--------|--------|--------|
D|--------|--------|--------|--------|--------|--------|--------|--------|
A|--------|--------|--------|--------|2-------|2-2-----|2-------|2-2---2-|
E|3------3|3-3---3-|3------3|3-3---3-|-------2|------2-|-------2|--------|

G|--------|--------|--------|--------|--------|--------|--------|--------|
D|--------|--------|--------|--------|--------|--------|--------|--------|
A|3------3|3-3-----|3-------|3-3-3---|3-------|3-3-----|3-------|--------|
E|--------|------3-|-------3|------3-|-------3|------3-|--------|--------|

Couplet 3 :
G|--------|--------|--------|--------|--------|--------|--------|--------|
D|--------|--------|--------|--------|--------|--------|--------|--------|
A|--------|--------|--------|--------|2------2|2-2---2-|2------2|2-2-----|
E|3------3|3-3---3-|3------3|3-3---3-|--------|--------|--------|------3-|

G|--------|--------|--------|--------|--------|--------|--------|--------|
D|--------|--------|--------|--------|--------|--------|--------|--------|
A|3-------|3-3-----|3-------|3-3---2-|3-------|3-3-----|3---5---|6-------|
E|-------3|------3-|-------3|--------|-------3|------3-|--------|----1---|

Couplet 4 :
G|--------|--------|--------|--------|--------|--------|--------|--------|
D|--------|--------|--------|--------|--------|--------|--------|--------|
A|--------|--------|--------|--------|2-------|2-2-----|2-------|2-2-----|
E|3------3|3-3---3-|3------3|3-3---3-|-------2|------2-|-------2|------2-|

G|--------|--------|--------|--------|--------|--------|--------|--------|
D|--------|--------|--------|--------|--------|--------|--------|--------|
A|3-------|3-3-----|3-------|3-3---2-|3-------|3-3-----|3---5---|6---8---|
E|-------3|------3-|-------3|--------|-------3|------3-|--------|--------|

Refrain 2 :
G|--------|--------|--------|--------|--------|--------|--------|--------|
D|--------|--------|--------|--------|--------|--------|--------|--------|
A|--------|--------|--------|--------|2-------|2-2-----|2-------|2-2---2-|
E|3------3|3-3---3-|3------3|3-3---3-|-------2|------2-|-------2|--------|

G|--------|--------|--------|--------|--------|--------|--------|--------|
D|--------|--------|--------|--------|--------|--------|--------|--------|
A|3------3|3-3-----|3-------|3-3-3---|3-------|3-3-----|3---5---|6---8---|
E|--------|------3-|-------3|------3-|-------3|------3-|--------|--------|

Refrain 3 :
G|--------|--------|--------|--------|--------|--------|--------|--------|
D|--------|--------|--------|--------|--------|--------|--------|--------|
A|--------|--------|--------|--------|2-------|2-2-----|2-------|2-2---2-|
E|3------3|3-3---3-|3------3|3-3---3-|-------2|------2-|-------2|--------|

G|--------|--------|--------|--------|--------|--------|--------|--------|
D|--------|--------|--------|--------|--------|--------|--------|--------|
A|3-------|3-3-----|3------3|5-3---2-|3-------|3-------|3---5---|6---8---|
E|-------3|------3-|--------|--------|--------|--------|--------|--------|

Refrain 4 :
G|--------|--------|--------|--------|--------|--------|--------|--------|
D|--------|--------|--------|--------|--------|--------|--------|--------|
A|--------|--------|--------|--------|2-------|2-2-----|2-------|2-2---2-|
E|3------3|3-3---3-|3------3|3-3---3-|-------2|------2-|-------2|--------|

G|--------|--------|--------|--------|--------|--------|--------|--------|
D|--------|--------|--------|--------|--------|--------|--------|--------|
A|3-------|3-3-----|3-------|3-3---5-|3-------|--------|--------|--------|
E|-------3|------3-|-------3|--------|--------|--------|--------|--------|

Couplet 5 :
G|--------|--------|--------|--------|--------|--------|--------|--------|
D|--------|--------|--------|--------|--------|--------|--------|--------|
A|--------|--------|--------|--------|2-------|------2-|2-------|--------|
E|3-------|------3-|3-------|--------|--------|--------|--------|--------|

G|--------|--------|--------|--------|--------|--------|--------|--------|
D|--------|--------|--------|--------|--------|--------|--------|--------|
A|3-------|------3-|3-------|--------|3-------|------3-|3-------|--------|
E|--------|--------|--------|--------|--------|--------|--------|--------|

Couplet 6 :
G|--------|--------|--------|--------|--------|--------|--------|--------|
D|--------|--------|--------|--------|--------|--------|--------|--------|
A|--------|--------|--------|--------|2-------|------2-|2-------|--------|
E|3-------|------3-|3-------|--------|--------|--------|--------|--------|

G|--------|--------|--------|--------|--------|--------|--------|--------|
D|--------|--------|--------|--------|--------|--------|--------|--------|
A|3-------|------3-|3-------|------3-|3-------|--------|--------|--------|
E|--------|--------|--------|--------|--------|--------|--------|--------|

Finale :
G|----H---|--------|--------|--------|
D|5---7--/|9-------|--------|--------|
A|--------|--------|--------|--------|
E|--------|--------|--------|--------|

=========================================================================================================================
Légende : / = glissé vers le haut
          H = Hammer On (de la note qui se trouve juste sous le H)
=========================================================================================================================

Visitez http://www.ilovetabs.com pour d'autres tablatures "+R" pour guitare basse.

 

 

 

Partager cet article

Repost 0

Commenter cet article