Overblog Suivre ce blog
Editer l'article Administration Créer mon blog
A Blog of Five Strings

[Bass Tab] 'Like a Foojin' - Beck MCS

2 Mars 2011 , Rédigé par Silver Brane Publié dans #Tablature

Après le cover de DavidSinRocks publié dernièrement, j'ai compilé la tablature qui apparaît dans la vidéo (qui apparaît être la sienne). Certains trouveront en effet ce format plus pratique pour répéter sans devoir lancer la vidéo.

Pour la petite histoire, Beck est le nom d'un groupe de rock japonais dans le manga et l'anime du même nom (c'est aussi le nom du chien qui est la mascotte du groupe). A noter également que pour l'exportation, Beck est souvent suivit de la mention "Mongolian Chop Squad" (MCS) en raison de droits existant déjà sur ce nom.

La chanson "Like a Foojin" est à l'origine interprétée par Yphoon24 feat Tatsuo de YKZ.

 


Intro: In/Out x1, A1 x4
Verse 1: A1 x8
Pre-chorus 1: B x1
Chorus 1: C x1, D1 x2
Post-chorus: A1 x3, A2 x1
Verse 2: A1 x3, A2 x1, A1 x4
Pre-chorus2: B x1
Chorus 2: C x1, D2 x4
End: In/Out x1


In/Out

Gb|---|

Db|---|

Ab|-2-|

Eb|---|

 

Riff A1

Gb|---------------------------|

Db|---------------------------|

Ab|-------------------------2-|

Eb|-2-0--2--0-2-0-2-0--2--0---|

 

Riff A2

Gb|---------------------------|

Db|---------------------------|

Ab|-------------------------2-|

Eb|-2-0--2--0-2-0-2-----------|

 

Riff B 

Gb|------------------------------------|

Db|------------------------------------|

Ab|-7-7-7-7-7-7-7-7--------------------|

Eb|-----------------0-0-0-0-0-0-0-0-\12|

 

Riff C

Gb|-------------------------| x2 |-------------|

Db|-------------------------|    |-8-8-8---8---|

Ab|-------------------------|    |-------8---8-|

Eb|-2---2-5---5-3---3-6---6-|    |-------------|

 

Riff D1

Gb|-----------------------------------------------------------------|

Db|-----------------------------------------------------------------|

Ab|-----------------------------------------------------------------|

Eb|-2-2-2-2-2-2-2-2-5-5-5-5-5-5-5-5-3-3-3-3-3-3-3-3-6-6-6-6-6-6-6-6-|

 

Riff D2

Gb|----------------------------------------------------------|

Db|-------------------777-75-----------------------8-8---8---|

Ab|---------------------------75-----------------------8---8-|

Eb|-2-2-2-2-2-2-2-\55------------3-3-3-3-3-3-3-\66-----------|



 

Partager cet article

Repost 0

Commenter cet article